Back to Steely Dan guitar tabs

Steely Dan: guitar tab and chords for Your Gold Teeth II - guitar solo, Katy Lied


    Your Gold Teeth II - Steely Dan
    -------------------------------

    From the album Katy Lied

    Transcribed by Rob Watson, robert (dot) watson14 (at) btinternet (dot) com 
    Chords copied from Howard Wright's transcription
                    

Howard's notes:

This is one of Denny Dias' finest moments with Steely Dan: a truly 
superb solo. Many thanks to Rob for transcribing it! 
               
                                    
Guitar solo
-----------


  A             G       Dbm7              Dm7       Bb/Eb
  6/8 time                                                         3/8
E|---------------------|-----------------|------------------------|--------6-8h9h10|
B|----------------5-7-8|9-----7h8h9-----9|------------------------|--6h7h8---------|
G|----------4-5-6------|--6-9-------6-9--|--------------------6h7h|8---------------|
D|----7p6h7------------|-----------------|----7-------5-6h7h8-----|----------------|
A|---------------------|-----------------|5-8---4h5-6-------------|----------------|
E|---------------------|-----------------|------------------------|----------------|


  C/D        G/A        Ebm7             Bb/C
  6/8
E|---------------------|-----11h13------|13-11-10-11-10h11p10------------|
B|---------------------|-----------14-11|---------------------13-11-10---|
G|---------------------|----------------|------------------------------12|
D|---------------------|----------------|--------------------------------|
A|---------------------|----------------|--------------------------------|
E|---------------------|----------------|--------------------------------|


  Fm7  Ebmaj7             Dm7                     Cm7    Fm7 Gm7   Am7     Bm7

E|-----------------------|10-13-13----10-13-13---|10-15-|----------------------|
B|------------------11-13|---------13----------13|------|6---6s8---8s10---10s12|
G|10----10-12-12-13------|-----------------------|------|--5-----7------9------|
D|---12------------------|-----------------------|------|----------------------|
A|-----------------------|-----------------------|------|----------------------|
E|-----------------------|-----------------------|------|----------------------|


  Dbm7                 Dm7      Bb/Eb                 
                                                      3/8   
E|9-------------------|---------------------------10-|13-10-|
B|--12p11p10-9--------|-----13p10-13p10--11------11--|------|
G|-------------11-10-9|9h10-----------------12--12---|------|
D|--------------------|------------------------12----|------|
A|--------------------|------------------------------|------|
E|--------------------|--------------------------rake|------|


  C/D              G/A                Ebm7                    
  6/8
E|15p14p13-12-13-12h13-12----12-13-15|13-11----------------13|
B|------------------------15---------|------14-12-11---------|
G|-----------------------------------|---------------13-11---|
D|-----------------------------------|-----------------------|
A|-----------------------------------|-----------------------|
E|-----------------------------------|-----------------------|


  Bb/C                             Fm7        Ebmaj7 

E|11-10---------------------------|----------------------------|
B|------13-11-10h11p10------------|------------------13-11-----|
G|---------------------12-11-10---|---------10-12-13-------12--|
D|------------------------------12|10-11-12--------------------|
A|--------------------------------|----------------------------|
E|--------------------------------|----------------------------|


  Dm7            Cm7                                   A        D
                                    drums
E|--------------|------------------|-----|-----|------|-5h7h8-9------------|
B|10------------|------------------|-----|-----|------|---------7h8h9h10-10|
G|---10s12s10---|------------------|-----|-----|------|--------------------|
D|--------------|10s12s10----------|-----|-----|------|--------------------|
A|------------10|---------10s12s10-|-----|-----|------|--------------------|
E|--------------|------------------|-----|-----|------|--------------------|


  G       F#m7             C#m7     F#m7     
                                             
E|---------------------|--------------------|
B|7h8p7---7------------|--------------------|
G|------9---9-7-6------|--------------------|
D|----------------9-8-7|------7-------------|
A|---------------------|9-7h9---9-8-7-------|
E|---------------------|--------------9-7-9-|


  B                                 D             G  
                                                  3/8
E|-----------------------------------------------|-----------------|
B|-------------(0)---------7-10p7-8-7------------|-----------------|
G|---------------------6-8------------9-7-6------|-----------------|
D|--------7-9p8---7h8h9---------------------9-8-7|9----------------|
A|--7h8h9----------------------------------------|--7-8-9-9-8-7-5--|
E|-----------------------------------------------|----------------7|


  A            G     A              G             A                   D
  3.08
E|------------------|5-7-8-9-7s9-10-11h12p11-10-8|h9-------------------------9-12|
B|---------------5-7|----------------------------|--10--------------------10-----|
G|---------4-5-6----|----------------------------|-----9-------9-11-10-9---------|
D|---7p6h7----------|----------------------------|-------10h11-------------------|
A|------------------|----------------------------|-------------------------------|
E|5-----------------|----------------------------|-------------------------------|


  G             F#m7             C#m7      F#m7         
  3/8           6/8                        3/8          
E|9-10----12-10|9--12p10p9----------------|------------|
B|-----12------|-----------12-10-9h10p9---|9-----------|
G|-------------|------------------------11|--11-11p10p9|
D|-------------|--------------------------|------------|
A|-------------|--------------------------|------------|
E|-------------|--------------------------|------------|



B                D        G              
6/8                       3/8
E|--------------11-12-13-14|10h11h12-10----10|
B|-----10h11h12------------|------------12---|
G|9-11---------------------|-----------------|
D|-------------------------|-----------------|
A|-------------------------|-----------------|
E|-------------------------|-----------------|



  A                  G        A
  6/8
E|9--10p9--------------------|-------------------9-10-11-12|
B|--------12-10p9------------|----------------10-----------|
G|----------------11-9------9|11-10-9----9-11--------------|
D|---------------------9-11--|--------11-------------------|
A|---------------------------|-----------------------------|
E|---------------------------|-----------------------------|


End Solo
---------

  A        G     A        G   A       G  same 2 chords repeat

E|---------5-7-5|9--5h6h7---5|----------|-------------------|-----------------5-7|
B|---5-6-7------|---------7--|7----7----|7-7-7p5-7p5--------|-------------5-7----|
G|--------------|------------|--4----4-6|------------6-5-4--|-------4-5-6--------|
D|--------------|------------|----------|------------------7|4h5--7--------------|
A|--------------|------------|----------|-------------------|--------------------|
E|--------------|------------|----------|-------------------|--------------------|



E|8-9----7-8-9-10-|--5h6h7---5---------|------------|-------------------|
B|----10----------|--------7---7p6p5---|--7-5------5|7p5-7p5-7p5-----5h6|
G|----------------|------------------7-|-------5h6--|------------5h6----|
D|----------------|--------------------|------------|-------------------|
A|----------------|--------------------|------------|-------------------|
E|----------------|--------------------|------------|-------------------|


                                                fade out
E|--5-7-5h6h7-5-------|5h6h7-5---7h8h9-7-|-12-9-10h12p10-9|
B|7-------------5h7-5-|--------5---------|----------------|
G|--------------------|------------------|----------------|
D|--------------------|------------------|----------------|
A|--------------------|------------------|----------------|
E|--------------------|------------------|----------------|

Back to Steely Dan and Donald Fagen guitar tabs

Last updated: February 2013