Back to Henry Mancini guitar tabs

Henry Mancini: guitar tab and chords for Holly, Breakfast at Tiffany's


   Holly - Henry Mancini
  -----------------------

   From the soundtrack to the film "Breakfast at Tiffany's"

   Transcribed by Howard Wright
   hakwright (at) gmail (dot) com


Here's the beautful guitar intro to the song "Holly" from
Breakfast At Tiffany's. All you really need to support the 
guitar part is a bass line, but I've written the implied
chords above the guitar tab.

It's only a short intro, but it's sweet!


Tab symbols
------------

h = hammer-on
p = pull-off



  C6/9                         Bbm7     Eb9

E--7--8--10--8--7h8p7-----------8--6--8--8----6----
B--8-------------------8-----8--6--------6----6----
G--7----------------------9-----6--------6----6----
D--7----------------------------6--------5----5----
A--------------------------------------------------
E--------------------------------------------------



  Ab6/9                       Dm7              G9

E--3--4---6-4--3h4p3-----------------5--8--12--10--
B--4------------------4-----4--6--8--------10--10--
G--3---------------------5-----5-----------10--10--
D--3---------------------------7-----------10---9--
A--------------------------------------------------
E--------------------------------------------------






Back to guitar tabs

Last updated: February 2013